ISO-10303-21;
HEADER;
FILE_DESCRIPTION (( 'STEP AP203' ),
    '1' );
FILE_NAME ('QB-CTZHWP-12.7-852-M.STEP',
    '2020-12-24T01:35:17',
    ( '' ),
    ( '' ),
    'SwSTEP 2.0',
    'SolidWorks 2020',
    '' );
FILE_SCHEMA (( 'CONFIG_CONTROL_DESIGN' ));
ENDSEC;

DATA;
#1 = APPLICATION_PROTOCOL_DEFINITION ( 'international standard', 'config_control_design', 1994, #213 ) ;
#2 = ORIENTED_EDGE ( 'NONE', *, *, #303, .F. ) ;
#3 = DESIGN_CONTEXT ( 'detailed design', #213, 'design' ) ;
#4 = CIRCLE ( 'NONE', #49, 6.349999999999999645 ) ;
#5 = ORIENTED_EDGE ( 'NONE', *, *, #255, .T. ) ;
#6 = DIRECTION ( 'NONE',  ( -1.000000000000000000, -0.000000000000000000, -0.000000000000000000 ) ) ;
#7 = DIRECTION ( 'NONE',  ( 0.000000000000000000, 0.000000000000000000, -1.000000000000000000 ) ) ;
#8 = CARTESIAN_POINT ( 'NONE',  ( 3.000000000000000888, 0.000000000000000000, 6.349999999999999645 ) ) ;
#9 = FACE_OUTER_BOUND ( 'NONE', #181, .T. ) ;
#10 = FACE_OUTER_BOUND ( 'NONE', #84, .T. ) ;
#11 = CC_DESIGN_PERSON_AND_ORGANIZATION_ASSIGNMENT ( #60, #83, ( #92 ) ) ;
#12 = DIRECTION ( 'NONE',  ( 0.000000000000000000, 0.000000000000000000, 1.000000000000000000 ) ) ;
#13 = ORIENTED_EDGE ( 'NONE', *, *, #255, .F. ) ;
#14 = PLANE ( 'NONE',  #174 ) ;
#15 = ORIENTED_EDGE ( 'NONE', *, *, #161, .F. ) ;
#16 = FACE_OUTER_BOUND ( 'NONE', #175, .T. ) ;
#17 = CLOSED_SHELL ( 'NONE', ( #131, #317, #117, #137, #56, #76, #194, #61, #187, #323 ) ) ;
#18 = APPROVAL ( #262, 'UNSPECIFIED' ) ;
#19 = ORIENTED_EDGE ( 'NONE', *, *, #89, .T. ) ;
#20 = LOCAL_TIME ( 9, 35, 17.00000000000000000, #311 ) ;
#21 = VERTEX_POINT ( 'NONE', #178 ) ;
#22 = PRODUCT_DEFINITION ( 'UNKNOWN', '', #292, #3 ) ;
#23 = CALENDAR_DATE ( 2020, 24, 12 ) ;
#24 = ORIENTED_EDGE ( 'NONE', *, *, #171, .T. ) ;
#25 = CIRCLE ( 'NONE', #191, 6.349999999999999645 ) ;
#26 = APPROVAL_PERSON_ORGANIZATION ( #334, #18, #310 ) ;
#27 = DATE_AND_TIME ( #23, #20 ) ;
#28 = CARTESIAN_POINT ( 'NONE',  ( -1.614212418857619014, 0.000000000000000000, 0.000000000000000000 ) ) ;
#29 = PERSON_AND_ORGANIZATION_ROLE ( 'classification_officer' ) ;
#30 = DATE_AND_TIME ( #54, #144 ) ;
#31 = CYLINDRICAL_SURFACE ( 'NONE', #48, 6.349999999999999645 ) ;
#32 = DIRECTION ( 'NONE',  ( -1.000000000000000000, -0.000000000000000000, -0.000000000000000000 ) ) ;
#33 = EDGE_CURVE ( 'NONE', #100, #180, #283, .T. ) ;
#34 = AXIS2_PLACEMENT_3D ( 'NONE', #222, #146, #250 ) ;
#35 = VECTOR ( 'NONE', #313, 1000.000000000000000 ) ;
#36 = AXIS2_PLACEMENT_3D ( 'NONE', #240, #162, #319 ) ;
#37 = MECHANICAL_CONTEXT ( 'NONE', #216, 'mechanical' ) ;
#38 = DIRECTION ( 'NONE',  ( -1.000000000000000000, -0.000000000000000000, -0.000000000000000000 ) ) ;
#39 = DIRECTION ( 'NONE',  ( 0.000000000000000000, 0.000000000000000000, 1.000000000000000000 ) ) ;
#40 = CIRCLE ( 'NONE', #154, 6.349999999999999645 ) ;
#41 = DIRECTION ( 'NONE',  ( 0.000000000000000000, 0.000000000000000000, 1.000000000000000000 ) ) ;
#42 = DIRECTION ( 'NONE',  ( -1.000000000000000000, -0.000000000000000000, -0.000000000000000000 ) ) ;
#43 = CARTESIAN_POINT ( 'NONE',  ( -1.500000000000000444, 0.000000000000000000, 0.000000000000000000 ) ) ;
#44 = DIRECTION ( 'NONE',  ( 0.000000000000000000, 0.000000000000000000, 1.000000000000000000 ) ) ;
#45 = ORIENTED_EDGE ( 'NONE', *, *, #241, .T. ) ;
#46 = PERSON ( 'UNSPECIFIED', 'UNSPECIFIED', 'UNSPECIFIED', ('UNSPECIFIED'), ('UNSPECIFIED'), ('UNSPECIFIED') ) ;
#47 = DATE_TIME_ROLE ( 'creation_date' ) ;
#48 = AXIS2_PLACEMENT_3D ( 'NONE', #261, #32, #134 ) ;
#49 = AXIS2_PLACEMENT_3D ( 'NONE', #215, #274, #94 ) ;
#50 = ORIENTED_EDGE ( 'NONE', *, *, #219, .T. ) ;
#51 = DIRECTION ( 'NONE',  ( -1.000000000000000000, -0.000000000000000000, -0.000000000000000000 ) ) ;
#52 = FACE_OUTER_BOUND ( 'NONE', #153, .T. ) ;
#53 = AXIS2_PLACEMENT_3D ( 'NONE', #285, #156, #110 ) ;
#54 = CALENDAR_DATE ( 2020, 24, 12 ) ;
#55 = FACE_OUTER_BOUND ( 'NONE', #300, .T. ) ;
#56 = ADVANCED_FACE ( 'NONE', ( #55 ), #257, .F. ) ;
#57 = COORDINATED_UNIVERSAL_TIME_OFFSET ( 8, 0, .AHEAD. ) ;
#58 = ORIENTED_EDGE ( 'NONE', *, *, #269, .T. ) ;
#59 = VECTOR ( 'NONE', #111, 1000.000000000000000 ) ;
#60 = PERSON_AND_ORGANIZATION ( #46, #238 ) ;
#61 = ADVANCED_FACE ( 'NONE', ( #52 ), #157, .T. ) ;
#62 = DIRECTION ( 'NONE',  ( -1.000000000000000000, -0.000000000000000000, -0.000000000000000000 ) ) ;
#63 = VECTOR ( 'NONE', #113, 1000.000000000000000 ) ;
#64 = DIRECTION ( 'NONE',  ( -1.000000000000000000, -0.000000000000000000, -0.000000000000000000 ) ) ;
#65 = CARTESIAN_POINT ( 'NONE',  ( -1.614212418857619014, 0.000000000000000000, 12.69999999999999929 ) ) ;
#66 = DIRECTION ( 'NONE',  ( 1.000000000000000000, 0.000000000000000000, 0.000000000000000000 ) ) ;
#67 = CIRCLE ( 'NONE', #149, 6.349999999999999645 ) ;
#68 = EDGE_CURVE ( 'NONE', #231, #80, #243, .T. ) ;
#69 = CYLINDRICAL_SURFACE ( 'NONE', #297, 6.349999999999999645 ) ;
#70 = EDGE_LOOP ( 'NONE', ( #202, #58 ) ) ;
#71 = CARTESIAN_POINT ( 'NONE',  ( 3.000000000000000888, 0.000000000000000000, 0.000000000000000000 ) ) ;
#72 = VERTEX_POINT ( 'NONE', #335 ) ;
#73 = PERSON_AND_ORGANIZATION ( #46, #238 ) ;
#74 = EDGE_LOOP ( 'NONE', ( #305, #125, #2, #97 ) ) ;
#75 = CIRCLE ( 'NONE', #298, 12.69999999999999929 ) ;
#76 = ADVANCED_FACE ( 'NONE', ( #204 ), #31, .F. ) ;
#77 = VERTEX_POINT ( 'NONE', #233 ) ;
#78 = APPROVAL_STATUS ( 'not_yet_approved' ) ;
#79 = DIRECTION ( 'NONE',  ( 0.000000000000000000, 0.000000000000000000, 1.000000000000000000 ) ) ;
#80 = VERTEX_POINT ( 'NONE', #176 ) ;
#81 = EDGE_CURVE ( 'NONE', #21, #77, #166, .T. ) ;
#82 = CIRCLE ( 'NONE', #120, 6.349999999999999645 ) ;
#83 = PERSON_AND_ORGANIZATION_ROLE ( 'design_owner' ) ;
#84 = EDGE_LOOP ( 'NONE', ( #106, #13 ) ) ;
#85 = LINE ( 'NONE', #115, #63 ) ;
#86 = APPROVAL_PERSON_ORGANIZATION ( #155, #182, #230 ) ;
#87 =( NAMED_UNIT ( * ) PLANE_ANGLE_UNIT ( ) SI_UNIT ( $, .RADIAN. ) );
#88 = CARTESIAN_POINT ( 'NONE',  ( -2.999999999999999556, 0.000000000000000000, 6.349999999999999645 ) ) ;
#89 = EDGE_CURVE ( 'NONE', #100, #249, #25, .T. ) ;
#90 = LINE ( 'NONE', #139, #35 ) ;
#91 = AXIS2_PLACEMENT_3D ( 'NONE', #186, #62, #41 ) ;
#92 = PRODUCT ( 'QB-CTZHWP-12.7-852-M', 'QB-CTZHWP-12.7-852-M', '', ( #37 ) ) ;
#93 = DIRECTION ( 'NONE',  ( -1.000000000000000000, -0.000000000000000000, -0.000000000000000000 ) ) ;
#94 = DIRECTION ( 'NONE',  ( 0.000000000000000000, 0.000000000000000000, -1.000000000000000000 ) ) ;
#95 = ORIENTED_EDGE ( 'NONE', *, *, #68, .T. ) ;
#96 = CC_DESIGN_APPROVAL ( #18, ( #22 ) ) ;
#97 = ORIENTED_EDGE ( 'NONE', *, *, #141, .F. ) ;
#98 = APPROVAL_ROLE ( '' ) ;
#99 = DIRECTION ( 'NONE',  ( -1.000000000000000000, -0.000000000000000000, -0.000000000000000000 ) ) ;
#100 = VERTEX_POINT ( 'NONE', #167 ) ;
#101 = AXIS2_PLACEMENT_3D ( 'NONE', #43, #299, #322 ) ;
#102 = AXIS2_PLACEMENT_3D ( 'NONE', #260, #132, #284 ) ;
#103 = ORIENTED_EDGE ( 'NONE', *, *, #81, .F. ) ;
#104 = APPROVAL_DATE_TIME ( #129, #182 ) ;
#105 = EDGE_LOOP ( 'NONE', ( #109, #280 ) ) ;
#106 = ORIENTED_EDGE ( 'NONE', *, *, #328, .F. ) ;
#107 = EDGE_LOOP ( 'NONE', ( #200, #123, #50, #95 ) ) ;
#108 = CIRCLE ( 'NONE', #91, 12.69999999999999929 ) ;
#109 = ORIENTED_EDGE ( 'NONE', *, *, #232, .F. ) ;
#110 = DIRECTION ( 'NONE',  ( 1.000000000000000000, 0.000000000000000000, 0.000000000000000000 ) ) ;
#111 = DIRECTION ( 'NONE',  ( -1.000000000000000000, -0.000000000000000000, -0.000000000000000000 ) ) ;
#112 = PRODUCT_RELATED_PRODUCT_CATEGORY ( 'detail', '', ( #92 ) ) ;
#113 = DIRECTION ( 'NONE',  ( -1.000000000000000000, -0.000000000000000000, -0.000000000000000000 ) ) ;
#114 = CIRCLE ( 'NONE', #36, 6.349999999999999645 ) ;
#115 = CARTESIAN_POINT ( 'NONE',  ( -1.614212418857619014, 0.000000000000000000, 6.349999999999999645 ) ) ;
#116 = CARTESIAN_POINT ( 'NONE',  ( -2.999999999999999556, 0.000000000000000000, 0.000000000000000000 ) ) ;
#117 = ADVANCED_FACE ( 'NONE', ( #16 ), #69, .F. ) ;
#118 = PERSON_AND_ORGANIZATION_ROLE ( 'creator' ) ;
#119 = CARTESIAN_POINT ( 'NONE',  ( 1.500000000000000888, 0.000000000000000000, 6.349999999999999645 ) ) ;
#120 = AXIS2_PLACEMENT_3D ( 'NONE', #116, #189, #163 ) ;
#121 = FACE_BOUND ( 'NONE', #251, .T. ) ;
#122 = DIRECTION ( 'NONE',  ( -0.000000000000000000, 0.000000000000000000, 1.000000000000000000 ) ) ;
#123 = ORIENTED_EDGE ( 'NONE', *, *, #81, .T. ) ;
#124 = PLANE ( 'NONE',  #253 ) ;
#125 = ORIENTED_EDGE ( 'NONE', *, *, #197, .T. ) ;
#126 = FACE_OUTER_BOUND ( 'NONE', #74, .T. ) ;
#127 = ORIENTED_EDGE ( 'NONE', *, *, #269, .F. ) ;
#128 = COORDINATED_UNIVERSAL_TIME_OFFSET ( 8, 0, .AHEAD. ) ;
#129 = DATE_AND_TIME ( #177, #130 ) ;
#130 = LOCAL_TIME ( 9, 35, 17.00000000000000000, #228 ) ;
#131 = ADVANCED_FACE ( 'NONE', ( #126 ), #145, .T. ) ;
#132 = DIRECTION ( 'NONE',  ( -1.000000000000000000, -0.000000000000000000, -0.000000000000000000 ) ) ;
#133 = ORIENTED_EDGE ( 'NONE', *, *, #68, .F. ) ;
#134 = DIRECTION ( 'NONE',  ( 0.000000000000000000, 0.000000000000000000, 1.000000000000000000 ) ) ;
#135 = AXIS2_PLACEMENT_3D ( 'NONE', #295, #276, #12 ) ;
#136 = SECURITY_CLASSIFICATION ( '', '', #309 ) ;
#137 = ADVANCED_FACE ( 'NONE', ( #10 ), #242, .F. ) ;
#138 = APPLICATION_PROTOCOL_DEFINITION ( 'international standard', 'config_control_design', 1994, #216 ) ;
#139 = CARTESIAN_POINT ( 'NONE',  ( -1.614212418857619014, 7.776507174585692163E-16, -6.349999999999999645 ) ) ;
#140 = PLANE ( 'NONE',  #206 ) ;
#141 = EDGE_CURVE ( 'NONE', #229, #272, #248, .T. ) ;
#142 = CARTESIAN_POINT ( 'NONE',  ( 3.000000000000000000, 0.000000000000000000, 0.000000000000000000 ) ) ;
#143 = DIRECTION ( 'NONE',  ( 0.000000000000000000, 0.000000000000000000, 1.000000000000000000 ) ) ;
#144 = LOCAL_TIME ( 9, 35, 17.00000000000000000, #57 ) ;
#145 = CYLINDRICAL_SURFACE ( 'NONE', #135, 12.69999999999999929 ) ;
#146 = DIRECTION ( 'NONE',  ( -1.000000000000000000, 0.000000000000000000, -0.000000000000000000 ) ) ;
#147 = DIRECTION ( 'NONE',  ( -1.000000000000000000, -0.000000000000000000, -0.000000000000000000 ) ) ;
#148 = CC_DESIGN_PERSON_AND_ORGANIZATION_ASSIGNMENT ( #150, #203, ( #292 ) ) ;
#149 = AXIS2_PLACEMENT_3D ( 'NONE', #327, #99, #198 ) ;
#150 = PERSON_AND_ORGANIZATION ( #46, #238 ) ;
#151 = ORIENTED_EDGE ( 'NONE', *, *, #259, .T. ) ;
#152 = VECTOR ( 'NONE', #147, 1000.000000000000000 ) ;
#153 = EDGE_LOOP ( 'NONE', ( #324, #330, #196, #127 ) ) ;
#154 = AXIS2_PLACEMENT_3D ( 'NONE', #270, #42, #143 ) ;
#155 = PERSON_AND_ORGANIZATION ( #46, #238 ) ;
#156 = DIRECTION ( 'NONE',  ( 0.000000000000000000, 0.000000000000000000, 1.000000000000000000 ) ) ;
#157 = CYLINDRICAL_SURFACE ( 'NONE', #102, 12.69999999999999929 ) ;
#158 = CARTESIAN_POINT ( 'NONE',  ( -2.999999999999999556, 0.000000000000000000, 0.000000000000000000 ) ) ;
#159 = AXIS2_PLACEMENT_3D ( 'NONE', #142, #210, #263 ) ;
#160 = CARTESIAN_POINT ( 'NONE',  ( -1.614212418857619014, 1.555301434917138433E-15, -12.69999999999999929 ) ) ;
#161 = EDGE_CURVE ( 'NONE', #249, #100, #67, .T. ) ;
#162 = DIRECTION ( 'NONE',  ( -1.000000000000000000, -0.000000000000000000, -0.000000000000000000 ) ) ;
#163 = DIRECTION ( 'NONE',  ( 0.000000000000000000, 0.000000000000000000, 1.000000000000000000 ) ) ;
#164 = CARTESIAN_POINT ( 'NONE',  ( 1.500000000000000888, 7.776507174585692163E-16, -6.349999999999999645 ) ) ;
#165 = CC_DESIGN_DATE_AND_TIME_ASSIGNMENT ( #27, #281, ( #136 ) ) ;
#166 = CIRCLE ( 'NONE', #101, 6.349999999999999645 ) ;
#167 = CARTESIAN_POINT ( 'NONE',  ( 3.000000000000000888, 7.776507174585692163E-16, -6.349999999999999645 ) ) ;
#168 = ORIENTED_EDGE ( 'NONE', *, *, #328, .T. ) ;
#169 = DIRECTION ( 'NONE',  ( 0.000000000000000000, 0.000000000000000000, 1.000000000000000000 ) ) ;
#170 = ORIENTED_EDGE ( 'NONE', *, *, #171, .F. ) ;
#171 = EDGE_CURVE ( 'NONE', #77, #21, #4, .T. ) ;
#172 = DATE_AND_TIME ( #301, #184 ) ;
#173 = DIRECTION ( 'NONE',  ( -1.000000000000000000, -0.000000000000000000, -0.000000000000000000 ) ) ;
#174 = AXIS2_PLACEMENT_3D ( 'NONE', #320, #271, #122 ) ;
#175 = EDGE_LOOP ( 'NONE', ( #278, #205, #5, #254 ) ) ;
#176 = CARTESIAN_POINT ( 'NONE',  ( -2.999999999999999556, 7.776507174585692163E-16, -6.349999999999999645 ) ) ;
#177 = CALENDAR_DATE ( 2020, 24, 12 ) ;
#178 = CARTESIAN_POINT ( 'NONE',  ( -1.500000000000000444, 7.776507174585692163E-16, -6.349999999999999645 ) ) ;
#179 = PERSON_AND_ORGANIZATION ( #46, #238 ) ;
#180 = VERTEX_POINT ( 'NONE', #164 ) ;
#181 = EDGE_LOOP ( 'NONE', ( #170, #103 ) ) ;
#182 = APPROVAL ( #78, 'UNSPECIFIED' ) ;
#183 = DIRECTION ( 'NONE',  ( 1.000000000000000000, 0.000000000000000000, 0.000000000000000000 ) ) ;
#184 = LOCAL_TIME ( 9, 35, 17.00000000000000000, #128 ) ;
#185 = CALENDAR_DATE ( 2020, 24, 12 ) ;
#186 = CARTESIAN_POINT ( 'NONE',  ( -3.000000000000000000, 0.000000000000000000, 0.000000000000000000 ) ) ;
#187 = ADVANCED_FACE ( 'NONE', ( #302, #121 ), #14, .F. ) ;
#188 = COORDINATED_UNIVERSAL_TIME_OFFSET ( 8, 0, .AHEAD. ) ;
#189 = DIRECTION ( 'NONE',  ( -1.000000000000000000, -0.000000000000000000, -0.000000000000000000 ) ) ;
#190 = PRODUCT_DEFINITION_SHAPE ( 'NONE', 'NONE',  #22 ) ;
#191 = AXIS2_PLACEMENT_3D ( 'NONE', #71, #173, #44 ) ;
#192 = DIRECTION ( 'NONE',  ( -1.000000000000000000, -0.000000000000000000, -0.000000000000000000 ) ) ;
#193 = CARTESIAN_POINT ( 'NONE',  ( -1.614212418857619014, 0.000000000000000000, 0.000000000000000000 ) ) ;
#194 = ADVANCED_FACE ( 'NONE', ( #325, #195 ), #124, .F. ) ;
#195 = FACE_OUTER_BOUND ( 'NONE', #70, .T. ) ;
#196 = ORIENTED_EDGE ( 'NONE', *, *, #141, .T. ) ;
#197 = EDGE_CURVE ( 'NONE', #217, #72, #236, .T. ) ;
#198 = DIRECTION ( 'NONE',  ( 0.000000000000000000, 0.000000000000000000, 1.000000000000000000 ) ) ;
#199 = EDGE_LOOP ( 'NONE', ( #24, #45, #308, #329 ) ) ;
#200 = ORIENTED_EDGE ( 'NONE', *, *, #241, .F. ) ;
#201 = SHAPE_DEFINITION_REPRESENTATION ( #190, #332 ) ;
#202 = ORIENTED_EDGE ( 'NONE', *, *, #303, .T. ) ;
#203 = PERSON_AND_ORGANIZATION_ROLE ( 'design_supplier' ) ;
#204 = FACE_OUTER_BOUND ( 'NONE', #107, .T. ) ;
#205 = ORIENTED_EDGE ( 'NONE', *, *, #33, .T. ) ;
#206 = AXIS2_PLACEMENT_3D ( 'NONE', #212, #183, #7 ) ;
#207 = APPROVAL ( #326, 'UNSPECIFIED' ) ;
#208 = AXIS2_PLACEMENT_3D ( 'NONE', #158, #51, #256 ) ;
#209 = CYLINDRICAL_SURFACE ( 'NONE', #245, 6.349999999999999645 ) ;
#210 = DIRECTION ( 'NONE',  ( -1.000000000000000000, -0.000000000000000000, -0.000000000000000000 ) ) ;
#211 = CARTESIAN_POINT ( 'NONE',  ( -1.614212418857619014, 0.000000000000000000, 0.000000000000000000 ) ) ;
#212 = CARTESIAN_POINT ( 'NONE',  ( -1.500000000000000444, 6.349999999999999645, 0.000000000000000000 ) ) ;
#213 = APPLICATION_CONTEXT ( 'configuration controlled 3d designs of mechanical parts and assemblies' ) ;
#214 = CIRCLE ( 'NONE', #159, 12.69999999999999929 ) ;
#215 = CARTESIAN_POINT ( 'NONE',  ( -1.500000000000000444, 0.000000000000000000, 0.000000000000000000 ) ) ;
#216 = APPLICATION_CONTEXT ( 'configuration controlled 3d designs of mechanical parts and assemblies' ) ;
#217 = VERTEX_POINT ( 'NONE', #268 ) ;
#218 = DIRECTION ( 'NONE',  ( 0.000000000000000000, 0.000000000000000000, -1.000000000000000000 ) ) ;
#219 = EDGE_CURVE ( 'NONE', #77, #231, #85, .T. ) ;
#220 = PERSON_AND_ORGANIZATION ( #46, #238 ) ;
#221 =( GEOMETRIC_REPRESENTATION_CONTEXT ( 3 ) GLOBAL_UNCERTAINTY_ASSIGNED_CONTEXT ( ( #321 ) ) GLOBAL_UNIT_ASSIGNED_CONTEXT ( ( #286, #87, #265 ) ) REPRESENTATION_CONTEXT ( 'NONE', 'WORKASPACE' ) );
#222 = CARTESIAN_POINT ( 'NONE',  ( 1.500000000000000444, 6.349999999999999645, 0.000000000000000000 ) ) ;
#223 = VERTEX_POINT ( 'NONE', #119 ) ;
#224 = ORIENTED_EDGE ( 'NONE', *, *, #33, .F. ) ;
#225 = CC_DESIGN_PERSON_AND_ORGANIZATION_ASSIGNMENT ( #179, #29, ( #136 ) ) ;
#226 = CC_DESIGN_APPROVAL ( #207, ( #292 ) ) ;
#227 = DIRECTION ( 'NONE',  ( -1.000000000000000000, -0.000000000000000000, -0.000000000000000000 ) ) ;
#228 = COORDINATED_UNIVERSAL_TIME_OFFSET ( 8, 0, .AHEAD. ) ;
#229 = VERTEX_POINT ( 'NONE', #316 ) ;
#230 = APPROVAL_ROLE ( '' ) ;
#231 = VERTEX_POINT ( 'NONE', #88 ) ;
#232 = EDGE_CURVE ( 'NONE', #229, #217, #214, .T. ) ;
#233 = CARTESIAN_POINT ( 'NONE',  ( -1.500000000000000444, 0.000000000000000000, 6.349999999999999645 ) ) ;
#234 = VECTOR ( 'NONE', #38, 1000.000000000000000 ) ;
#235 = CC_DESIGN_DATE_AND_TIME_ASSIGNMENT ( #288, #47, ( #22 ) ) ;
#236 = LINE ( 'NONE', #160, #234 ) ;
#237 = LINE ( 'NONE', #266, #59 ) ;
#238 = ORGANIZATION ( 'UNSPECIFIED', 'UNSPECIFIED', '' ) ;
#239 = FACE_OUTER_BOUND ( 'NONE', #199, .T. ) ;
#240 = CARTESIAN_POINT ( 'NONE',  ( 1.500000000000000888, 0.000000000000000000, 0.000000000000000000 ) ) ;
#241 = EDGE_CURVE ( 'NONE', #21, #80, #90, .T. ) ;
#242 = PLANE ( 'NONE',  #34 ) ;
#243 = CIRCLE ( 'NONE', #208, 6.349999999999999645 ) ;
#244 = AXIS2_PLACEMENT_3D ( 'NONE', #28, #279, #79 ) ;
#245 = AXIS2_PLACEMENT_3D ( 'NONE', #211, #64, #318 ) ;
#246 = ORIENTED_EDGE ( 'NONE', *, *, #247, .F. ) ;
#247 = EDGE_CURVE ( 'NONE', #80, #231, #82, .T. ) ;
#248 = LINE ( 'NONE', #65, #152 ) ;
#249 = VERTEX_POINT ( 'NONE', #8 ) ;
#250 = DIRECTION ( 'NONE',  ( -0.000000000000000000, 0.000000000000000000, 1.000000000000000000 ) ) ;
#251 = EDGE_LOOP ( 'NONE', ( #275, #19 ) ) ;
#252 = VECTOR ( 'NONE', #227, 1000.000000000000000 ) ;
#253 = AXIS2_PLACEMENT_3D ( 'NONE', #296, #66, #218 ) ;
#254 = ORIENTED_EDGE ( 'NONE', *, *, #259, .F. ) ;
#255 = EDGE_CURVE ( 'NONE', #180, #223, #114, .T. ) ;
#256 = DIRECTION ( 'NONE',  ( 0.000000000000000000, 0.000000000000000000, 1.000000000000000000 ) ) ;
#257 = CYLINDRICAL_SURFACE ( 'NONE', #244, 6.349999999999999645 ) ;
#258 = MANIFOLD_SOLID_BREP ( 'Ðý×', #17 ) ;
#259 = EDGE_CURVE ( 'NONE', #249, #223, #237, .T. ) ;
#260 = CARTESIAN_POINT ( 'NONE',  ( -1.614212418857619014, 0.000000000000000000, 0.000000000000000000 ) ) ;
#261 = CARTESIAN_POINT ( 'NONE',  ( -1.614212418857619014, 0.000000000000000000, 0.000000000000000000 ) ) ;
#262 = APPROVAL_STATUS ( 'not_yet_approved' ) ;
#263 = DIRECTION ( 'NONE',  ( 0.000000000000000000, 0.000000000000000000, 1.000000000000000000 ) ) ;
#264 = EDGE_CURVE ( 'NONE', #217, #229, #273, .T. ) ;
#265 =( NAMED_UNIT ( * ) SI_UNIT ( $, .STERADIAN. ) SOLID_ANGLE_UNIT ( ) );
#266 = CARTESIAN_POINT ( 'NONE',  ( -1.614212418857619014, 0.000000000000000000, 6.349999999999999645 ) ) ;
#267 = APPROVAL_PERSON_ORGANIZATION ( #220, #207, #98 ) ;
#268 = CARTESIAN_POINT ( 'NONE',  ( 3.000000000000000000, 1.555301434917138433E-15, -12.69999999999999929 ) ) ;
#269 = EDGE_CURVE ( 'NONE', #72, #272, #108, .T. ) ;
#270 = CARTESIAN_POINT ( 'NONE',  ( 1.500000000000000888, 0.000000000000000000, 0.000000000000000000 ) ) ;
#271 = DIRECTION ( 'NONE',  ( -1.000000000000000000, 0.000000000000000000, -0.000000000000000000 ) ) ;
#272 = VERTEX_POINT ( 'NONE', #293 ) ;
#273 = CIRCLE ( 'NONE', #331, 12.69999999999999929 ) ;
#274 = DIRECTION ( 'NONE',  ( 1.000000000000000000, 0.000000000000000000, 0.000000000000000000 ) ) ;
#275 = ORIENTED_EDGE ( 'NONE', *, *, #161, .T. ) ;
#276 = DIRECTION ( 'NONE',  ( -1.000000000000000000, -0.000000000000000000, -0.000000000000000000 ) ) ;
#277 = LOCAL_TIME ( 9, 35, 17.00000000000000000, #188 ) ;
#278 = ORIENTED_EDGE ( 'NONE', *, *, #89, .F. ) ;
#279 = DIRECTION ( 'NONE',  ( -1.000000000000000000, -0.000000000000000000, -0.000000000000000000 ) ) ;
#280 = ORIENTED_EDGE ( 'NONE', *, *, #264, .F. ) ;
#281 = DATE_TIME_ROLE ( 'classification_date' ) ;
#282 = CC_DESIGN_APPROVAL ( #182, ( #136 ) ) ;
#283 = LINE ( 'NONE', #333, #252 ) ;
#284 = DIRECTION ( 'NONE',  ( 0.000000000000000000, 0.000000000000000000, 1.000000000000000000 ) ) ;
#285 = CARTESIAN_POINT ( 'NONE',  ( 0.000000000000000000, 0.000000000000000000, 0.000000000000000000 ) ) ;
#286 =( LENGTH_UNIT ( ) NAMED_UNIT ( * ) SI_UNIT ( .MILLI., .METRE. ) );
#287 = CC_DESIGN_PERSON_AND_ORGANIZATION_ASSIGNMENT ( #294, #118, ( #22 ) ) ;
#288 = DATE_AND_TIME ( #185, #277 ) ;
#289 = DIRECTION ( 'NONE',  ( 0.000000000000000000, 0.000000000000000000, 1.000000000000000000 ) ) ;
#290 = CC_DESIGN_PERSON_AND_ORGANIZATION_ASSIGNMENT ( #73, #306, ( #292 ) ) ;
#291 = CARTESIAN_POINT ( 'NONE',  ( -3.000000000000000000, 0.000000000000000000, 0.000000000000000000 ) ) ;
#292 = PRODUCT_DEFINITION_FORMATION_WITH_SPECIFIED_SOURCE ( 'ANY', '', #92, .NOT_KNOWN. ) ;
#293 = CARTESIAN_POINT ( 'NONE',  ( -3.000000000000000000, 0.000000000000000000, 12.69999999999999929 ) ) ;
#294 = PERSON_AND_ORGANIZATION ( #46, #238 ) ;
#295 = CARTESIAN_POINT ( 'NONE',  ( -1.614212418857619014, 0.000000000000000000, 0.000000000000000000 ) ) ;
#296 = CARTESIAN_POINT ( 'NONE',  ( -3.000000000000000000, 6.349999999999999645, 0.000000000000000000 ) ) ;
#297 = AXIS2_PLACEMENT_3D ( 'NONE', #193, #93, #169 ) ;
#298 = AXIS2_PLACEMENT_3D ( 'NONE', #291, #6, #39 ) ;
#299 = DIRECTION ( 'NONE',  ( 1.000000000000000000, 0.000000000000000000, 0.000000000000000000 ) ) ;
#300 = EDGE_LOOP ( 'NONE', ( #224, #15, #151, #168 ) ) ;
#301 = CALENDAR_DATE ( 2020, 24, 12 ) ;
#302 = FACE_OUTER_BOUND ( 'NONE', #105, .T. ) ;
#303 = EDGE_CURVE ( 'NONE', #272, #72, #75, .T. ) ;
#304 = APPROVAL_DATE_TIME ( #172, #207 ) ;
#305 = ORIENTED_EDGE ( 'NONE', *, *, #232, .T. ) ;
#306 = PERSON_AND_ORGANIZATION_ROLE ( 'creator' ) ;
#307 = EDGE_LOOP ( 'NONE', ( #133, #246 ) ) ;
#308 = ORIENTED_EDGE ( 'NONE', *, *, #247, .T. ) ;
#309 = SECURITY_CLASSIFICATION_LEVEL ( 'unclassified' ) ;
#310 = APPROVAL_ROLE ( '' ) ;
#311 = COORDINATED_UNIVERSAL_TIME_OFFSET ( 8, 0, .AHEAD. ) ;
#312 = APPROVAL_DATE_TIME ( #30, #18 ) ;
#313 = DIRECTION ( 'NONE',  ( -1.000000000000000000, -0.000000000000000000, -0.000000000000000000 ) ) ;
#314 = CARTESIAN_POINT ( 'NONE',  ( 3.000000000000000000, 0.000000000000000000, 0.000000000000000000 ) ) ;
#315 = CC_DESIGN_SECURITY_CLASSIFICATION ( #136, ( #292 ) ) ;
#316 = CARTESIAN_POINT ( 'NONE',  ( 3.000000000000000000, 0.000000000000000000, 12.69999999999999929 ) ) ;
#317 = ADVANCED_FACE ( 'NONE', ( #239 ), #209, .F. ) ;
#318 = DIRECTION ( 'NONE',  ( 0.000000000000000000, 0.000000000000000000, 1.000000000000000000 ) ) ;
#319 = DIRECTION ( 'NONE',  ( 0.000000000000000000, 0.000000000000000000, 1.000000000000000000 ) ) ;
#320 = CARTESIAN_POINT ( 'NONE',  ( 3.000000000000000000, 12.69999999999999929, 0.000000000000000000 ) ) ;
#321 = UNCERTAINTY_MEASURE_WITH_UNIT (LENGTH_MEASURE( 1.000000000000000082E-05 ), #286, 'distance_accuracy_value', 'NONE');
#322 = DIRECTION ( 'NONE',  ( 0.000000000000000000, 0.000000000000000000, -1.000000000000000000 ) ) ;
#323 = ADVANCED_FACE ( 'NONE', ( #9 ), #140, .F. ) ;
#324 = ORIENTED_EDGE ( 'NONE', *, *, #197, .F. ) ;
#325 = FACE_BOUND ( 'NONE', #307, .T. ) ;
#326 = APPROVAL_STATUS ( 'not_yet_approved' ) ;
#327 = CARTESIAN_POINT ( 'NONE',  ( 3.000000000000000888, 0.000000000000000000, 0.000000000000000000 ) ) ;
#328 = EDGE_CURVE ( 'NONE', #223, #180, #40, .T. ) ;
#329 = ORIENTED_EDGE ( 'NONE', *, *, #219, .F. ) ;
#330 = ORIENTED_EDGE ( 'NONE', *, *, #264, .T. ) ;
#331 = AXIS2_PLACEMENT_3D ( 'NONE', #314, #192, #289 ) ;
#332 = ADVANCED_BREP_SHAPE_REPRESENTATION ( 'QB-CTZHWP-12.7-852-M', ( #258, #53 ), #221 ) ;
#333 = CARTESIAN_POINT ( 'NONE',  ( -1.614212418857619014, 7.776507174585692163E-16, -6.349999999999999645 ) ) ;
#334 = PERSON_AND_ORGANIZATION ( #46, #238 ) ;
#335 = CARTESIAN_POINT ( 'NONE',  ( -3.000000000000000000, 1.555301434917138433E-15, -12.69999999999999929 ) ) ;
ENDSEC;
END-ISO-10303-21;
